  0
SECTION
  2
HEADER
  9
$ACADVER
  1
AC1015
  9
$ACADMAINTVER
 70
     6
  9
$DWGCODEPAGE
  3
ANSI_1254
  9
$INSBASE
 10
0.0
 20
0.0
 30
0.0
  9
$EXTMIN
 10
0.0
 20
0.0
 30
0.0
  9
$EXTMAX
 10
279.4
 20
215.9
 30
0.0
  9
$LIMMIN
 10
0.0
 20
0.0
  9
$LIMMAX
 10
279.4
 20
215.9
  9
$ORTHOMODE
 70
     0
  9
$REGENMODE
 70
     1
  9
$FILLMODE
 70
     1
  9
$QTEXTMODE
 70
     0
  9
$MIRRTEXT
 70
     1
  9
$LTSCALE
 40
1.0
  9
$ATTMODE
 70
     1
  9
$TEXTSIZE
 40
3.5
  9
$TRACEWID
 40
1.0
  9
$TEXTSTYLE
  7
Standard
  9
$CLAYER
  8
0
  9
$CELTYPE
  6
ByLayer
  9
$CECOLOR
 62
   256
  9
$CELTSCALE
 40
1.0
  9
$DISPSILH
 70
     0
  9
$DIMSCALE
 40
1.0
  9
$DIMASZ
 40
3.5
  9
$DIMEXO
 40
1.0
  9
$DIMDLI
 40
3.75
  9
$DIMRND
 40
0.0
  9
$DIMDLE
 40
0.0
  9
$DIMEXE
 40
1.0
  9
$DIMTP
 40
0.0
  9
$DIMTM
 40
0.0
  9
$DIMTXT
 40
3.5
  9
$DIMCEN
 40
2.5
  9
$DIMTSZ
 40
0.0
  9
$DIMTOL
 70
     0
  9
$DIMLIM
 70
     0
  9
$DIMTIH
 70
     1
  9
$DIMTOH
 70
     1
  9
$DIMSE1
 70
     0
  9
$DIMSE2
 70
     0
  9
$DIMTAD
 70
     1
  9
$DIMZIN
 70
     0
  9
$DIMBLK
  1

  9
$DIMASO
 70
     1
  9
$DIMSHO
 70
     1
  9
$DIMPOST
  1

  9
$DIMAPOST
  1

  9
$DIMALT
 70
     0
  9
$DIMALTD
 70
     3
  9
$DIMALTF
 40
0.0393700787
  9
$DIMLFAC
 40
1.0
  9
$DIMTOFL
 70
     1
  9
$DIMTVP
 40
0.0
  9
$DIMTIX
 70
     0
  9
$DIMSOXD
 70
     0
  9
$DIMSAH
 70
     0
  9
$DIMBLK1
  1

  9
$DIMBLK2
  1

  9
$DIMSTYLE
  2
ISO-25
  9
$DIMCLRD
 70
     0
  9
$DIMCLRE
 70
     0
  9
$DIMCLRT
 70
     0
  9
$DIMTFAC
 40
1.0
  9
$DIMGAP
 40
1.524
  9
$DIMJUST
 70
     0
  9
$DIMSD1
 70
     0
  9
$DIMSD2
 70
     0
  9
$DIMTOLJ
 70
     0
  9
$DIMTZIN
 70
     0
  9
$DIMALTZ
 70
     0
  9
$DIMALTTZ
 70
     0
  9
$DIMUPT
 70
     0
  9
$DIMDEC
 70
     2
  9
$DIMTDEC
 70
     2
  9
$DIMALTU
 70
     2
  9
$DIMALTTD
 70
     3
  9
$DIMTXSTY
  7
Standard
  9
$DIMAUNIT
 70
     0
  9
$DIMADEC
 70
     2
  9
$DIMALTRND
 40
0.0
  9
$DIMAZIN
 70
     0
  9
$DIMDSEP
 70
    44
  9
$DIMATFIT
 70
     3
  9
$DIMFRAC
 70
     0
  9
$DIMLDRBLK
  1

  9
$DIMLUNIT
 70
     2
  9
$DIMLWD
 70
    -2
  9
$DIMLWE
 70
    -2
  9
$DIMTMOVE
 70
     0
  9
$LUNITS
 70
     2
  9
$LUPREC
 70
     2
  9
$SKETCHINC
 40
1.0
  9
$FILLETRAD
 40
10.0
  9
$AUNITS
 70
     0
  9
$AUPREC
 70
     2
  9
$MENU
  1
.
  9
$ELEVATION
 40
0.0
  9
$PELEVATION
 40
0.0
  9
$THICKNESS
 40
0.0
  9
$LIMCHECK
 70
     0
  9
$CHAMFERA
 40
0.0
  9
$CHAMFERB
 40
0.0
  9
$CHAMFERC
 40
0.0
  9
$CHAMFERD
 40
0.0
  9
$SKPOLY
 70
     0
  9
$TDCREATE
 40
2460697.540931597
  9
$TDUCREATE
 40
2460697.415931597
  9
$TDUPDATE
 40
2460697.540931701
  9
$TDUUPDATE
 40
2460697.415931701
  9
$TDINDWG
 40
0.0000000116
  9
$TDUSRTIMER
 40
0.0000000116
  9
$USRTIMER
 70
     1
  9
$ANGBASE
 50
0.0
  9
$ANGDIR
 70
     0
  9
$PDMODE
 70
     0
  9
$PDSIZE
 40
-1.0
  9
$PLINEWID
 40
0.0
  9
$SPLFRAME
 70
     0
  9
$SPLINETYPE
 70
     6
  9
$SPLINESEGS
 70
     8
  9
$HANDSEED
  5
B2
  9
$SURFTAB1
 70
     6
  9
$SURFTAB2
 70
     6
  9
$SURFTYPE
 70
     6
  9
$SURFU
 70
     6
  9
$SURFV
 70
     6
  9
$UCSBASE
  2

  9
$UCSNAME
  2

  9
$UCSORG
 10
0.0
 20
0.0
 30
0.0
  9
$UCSXDIR
 10
1.0
 20
0.0
 30
0.0
  9
$UCSYDIR
 10
0.0
 20
1.0
 30
0.0
  9
$UCSORTHOREF
  2

  9
$UCSORTHOVIEW
 70
     0
  9
$UCSORGTOP
 10
0.0
 20
0.0
 30
0.0
  9
$UCSORGBOTTOM
 10
0.0
 20
0.0
 30
0.0
  9
$UCSORGLEFT
 10
0.0
 20
0.0
 30
0.0
  9
$UCSORGRIGHT
 10
0.0
 20
0.0
 30
0.0
  9
$UCSORGFRONT
 10
0.0
 20
0.0
 30
0.0
  9
$UCSORGBACK
 10
0.0
 20
0.0
 30
0.0
  9
$PUCSBASE
  2

  9
$PUCSNAME
  2

  9
$PUCSORG
 10
0.0
 20
0.0
 30
0.0
  9
$PUCSXDIR
 10
1.0
 20
0.0
 30
0.0
  9
$PUCSYDIR
 10
0.0
 20
1.0
 30
0.0
  9
$PUCSORTHOREF
  2

  9
$PUCSORTHOVIEW
 70
     0
  9
$PUCSORGTOP
 10
0.0
 20
0.0
 30
0.0
  9
$PUCSORGBOTTOM
 10
0.0
 20
0.0
 30
0.0
  9
$PUCSORGLEFT
 10
0.0
 20
0.0
 30
0.0
  9
$PUCSORGRIGHT
 10
0.0
 20
0.0
 30
0.0
  9
$PUCSORGFRONT
 10
0.0
 20
0.0
 30
0.0
  9
$PUCSORGBACK
 10
0.0
 20
0.0
 30
0.0
  9
$USERI1
 70
     0
  9
$USERI2
 70
     0
  9
$USERI3
 70
     0
  9
$USERI4
 70
     0
  9
$USERI5
 70
     0
  9
$USERR1
 40
0.0
  9
$USERR2
 40
0.0
  9
$USERR3
 40
0.0
  9
$USERR4
 40
0.0
  9
$USERR5
 40
0.0
  9
$WORLDVIEW
 70
     1
  9
$SHADEDGE
 70
     3
  9
$SHADEDIF
 70
    70
  9
$TILEMODE
 70
     1
  9
$MAXACTVP
 70
    64
  9
$PINSBASE
 10
0.0
 20
0.0
 30
0.0
  9
$PLIMCHECK
 70
     0
  9
$PEXTMIN
 10
1.0000000000E+20
 20
1.0000000000E+20
 30
1.0000000000E+20
  9
$PEXTMAX
 10
-1.0000000000E+20
 20
-1.0000000000E+20
 30
-1.0000000000E+20
  9
$PLIMMIN
 10
0.0
 20
0.0
  9
$PLIMMAX
 10
420.0
 20
297.0
  9
$UNITMODE
 70
     0
  9
$VISRETAIN
 70
     1
  9
$PLINEGEN
 70
     0
  9
$PSLTSCALE
 70
     1
  9
$TREEDEPTH
 70
  3020
  9
$CMLSTYLE
  2
Standard
  9
$CMLJUST
 70
     0
  9
$CMLSCALE
 40
20.0
  9
$PROXYGRAPHICS
 70
     1
  9
$MEASUREMENT
 70
     1
  9
$CELWEIGHT
370
    -1
  9
$ENDCAPS
280
     0
  9
$JOINSTYLE
280
     0
  9
$LWDISPLAY
290
     1
  9
$INSUNITS
 70
     4
  9
$HYPERLINKBASE
  1

  9
$STYLESHEET
  1

  9
$XEDIT
290
     1
  9
$CEPSNTYPE
380
     0
  9
$PSTYLEMODE
290
     1
  9
$FINGERPRINTGUID
  2
{c3f40280-d814-4284-a441-0946dc0fca35}
  9
$VERSIONGUID
  2
{FAEB1C32-E019-11D5-929B-00C0DF256EC4}
  9
$EXTNAMES
290
     1
  9
$PSVPSCALE
 40
0.0
  9
$OLESTARTUP
290
     0
  0
ENDSEC
  0
SECTION
  2
CLASSES
  0
CLASS
  1
ACDBDICTIONARYWDFLT
  2
AcDbDictionaryWithDefault
  3
ObjectDBX Classes
 90
        0
280
     0
281
     0
  0
CLASS
  1
VISUALSTYLE
  2
AcDbVisualStyle
  3
ObjectDBX Classes
 90
     4095
280
     0
281
     0
  0
CLASS
  1
MATERIAL
  2
AcDbMaterial
  3
ObjectDBX Classes
 90
     1153
280
     0
281
     0
  0
CLASS
  1
SCALE
  2
AcDbScale
  3
ObjectDBX Classes
 90
     1153
280
     0
281
     0
  0
CLASS
  1
TABLESTYLE
  2
AcDbTableStyle
  3
ObjectDBX Classes
 90
     4095
280
     0
281
     0
  0
CLASS
  1
MLEADERSTYLE
  2
AcDbMLeaderStyle
  3
ACDB_MLEADERSTYLE_CLASS
 90
     4095
280
     0
281
     0
  0
CLASS
  1
SUN
  2
AcDbSun
  3
SCENEOE
 90
     1153
280
     0
281
     0
  0
CLASS
  1
ACDBPLACEHOLDER
  2
AcDbPlaceHolder
  3
ObjectDBX Classes
 90
        0
280
     0
281
     0
  0
CLASS
  1
LAYOUT
  2
AcDbLayout
  3
ObjectDBX Classes
 90
        0
280
     0
281
     0
  0
ENDSEC
  0
SECTION
  2
TABLES
  0
TABLE
  2
VPORT
  5
8
330
0
100
AcDbSymbolTable
 70
     1
  0
VPORT
  5
29
330
8
100
AcDbSymbolTableRecord
100
AcDbViewportTableRecord
  2
*Active
 70
     0
 10
0.0
 20
0.0
 11
1.0
 21
1.0
 12
139.7
 22
107.95
 13
0.0
 23
0.0
 14
10.0
 24
10.0
 15
10.0
 25
10.0
 16
0.0
 26
0.0
 36
1.0
 17
0.0
 27
0.0
 37
0.0
 40
215.9
 41
1.2941176471
 42
50.0
 43
0.0
 44
0.0
 50
0.0
 51
0.0
 71
     0
 72
  2000
 73
     1
 74
     3
 75
     0
 76
     0
 77
     0
 78
     0
281
     0
 65
     1
110
0.0
120
0.0
130
0.0
111
1.0
121
0.0
131
0.0
112
0.0
122
1.0
132
0.0
 79
     0
146
0.0
  0
ENDTAB
  0
TABLE
  2
LTYPE
  5
5
330
0
100
AcDbSymbolTable
 70
     6
  0
LTYPE
  5
14
330
5
100
AcDbSymbolTableRecord
100
AcDbLinetypeTableRecord
  2
ByBlock
 70
     0
  3

 72
    65
 73
     0
 40
0.0
  0
LTYPE
  5
15
330
5
100
AcDbSymbolTableRecord
100
AcDbLinetypeTableRecord
  2
ByLayer
 70
     0
  3

 72
    65
 73
     0
 40
0.0
  0
LTYPE
  5
16
330
5
100
AcDbSymbolTableRecord
100
AcDbLinetypeTableRecord
  2
Continuous
 70
     0
  3
Solid line
 72
    65
 73
     0
 40
0.0
  0
LTYPE
  5
6E
330
5
100
AcDbSymbolTableRecord
100
AcDbLinetypeTableRecord
  2
HIDDEN
 70
     0
  3
Hidden __ __ __ __ __ __ __ __ __ __ __ __ __ __
 72
    65
 73
     2
 40
1.905
 49
1.27
 74
     0
 49
-0.635
 74
     0
  0
LTYPE
  5
6F
330
5
100
AcDbSymbolTableRecord
100
AcDbLinetypeTableRecord
  2
PHANTOM
 70
     0
  3
Phantom ______  __  __  ______  __  __  ______
 72
    65
 73
     6
 40
12.7
 49
6.35
 74
     0
 49
-1.27
 74
     0
 49
1.27
 74
     0
 49
-1.27
 74
     0
 49
1.27
 74
     0
 49
-1.27
 74
     0
  0
LTYPE
  5
70
330
5
100
AcDbSymbolTableRecord
100
AcDbLinetypeTableRecord
  2
CENTER
 70
     0
  3
Center ____ _ ____ _ ____ _ ____ _ ____ _ ____
 72
    65
 73
     4
 40
10.16
 49
6.35
 74
     0
 49
-1.27
 74
     0
 49
1.27
 74
     0
 49
-1.27
 74
     0
  0
LTYPE
  5
71
330
5
100
AcDbSymbolTableRecord
100
AcDbLinetypeTableRecord
  2
CENTERX2
 70
     0
  3
Center (2x) ________  __  ________  __  _____
 72
    65
 73
     4
 40
20.32
 49
12.7
 74
     0
 49
-2.54
 74
     0
 49
2.54
 74
     0
 49
-2.54
 74
     0
  0
LTYPE
  5
72
330
5
100
AcDbSymbolTableRecord
100
AcDbLinetypeTableRecord
  2
DOT2
 70
     0
  3
Dot (.5x) ........................................
 72
    65
 73
     2
 40
0.635
 49
0.0
 74
     0
 49
-0.635
 74
     0
  0
ENDTAB
  0
TABLE
  2
LAYER
  5
2
330
0
100
AcDbSymbolTable
 70
    17
  0
LAYER
  5
10
330
2
100
AcDbSymbolTableRecord
100
AcDbLayerTableRecord
  2
0
 70
     0
 62
     7
  6
Continuous
370
    -3
390
F
  0
LAYER
  5
73
330
2
100
AcDbSymbolTableRecord
100
AcDbLayerTableRecord
  2
FORMAT
 70
     0
 62
     7
  6
Continuous
370
    -3
390
F
  0
LAYER
  5
74
330
2
100
AcDbSymbolTableRecord
100
AcDbLayerTableRecord
  2
YARDIMCI_GEOMETRI
 70
     0
 62
    -6
  6
Continuous
290
     0
370
    -3
390
F
  0
LAYER
  5
75
330
2
100
AcDbSymbolTableRecord
100
AcDbLayerTableRecord
  2
SAYFA_CERCEVESI
 70
     0
 62
     7
  6
Continuous
370
    25
390
F
  0
LAYER
  5
76
330
2
100
AcDbSymbolTableRecord
100
AcDbLayerTableRecord
  2
ANTET
 70
     0
 62
     7
  6
Continuous
370
    -3
390
F
  0
LAYER
  5
77
330
2
100
AcDbSymbolTableRecord
100
AcDbLayerTableRecord
  2
OLCU
 70
     0
 62
   150
  6
Continuous
370
    -3
390
F
  0
LAYER
  5
78
330
2
100
AcDbSymbolTableRecord
100
AcDbLayerTableRecord
  2
METIN
 70
     0
 62
    96
  6
Continuous
370
    -3
390
F
  0
LAYER
  5
79
330
2
100
AcDbSymbolTableRecord
100
AcDbLayerTableRecord
  2
BALON
 70
     0
 62
     5
  6
Continuous
370
    -3
390
F
  0
LAYER
  5
7A
330
2
100
AcDbSymbolTableRecord
100
AcDbLayerTableRecord
  2
VURGU
 70
     0
 62
     7
  6
Continuous
370
    -3
390
F
  0
LAYER
  5
7B
330
2
100
AcDbSymbolTableRecord
100
AcDbLayerTableRecord
  2
SILIK
 70
     0
 62
     7
  6
Continuous
370
    -3
390
F
  0
LAYER
  5
7C
330
2
100
AcDbSymbolTableRecord
100
AcDbLayerTableRecord
  2
MODEL
 70
     0
 62
     7
  6
Continuous
370
    -3
390
F
  0
LAYER
  5
7D
330
2
100
AcDbSymbolTableRecord
100
AcDbLayerTableRecord
  2
DETAYLANDıRMA
 70
     0
 62
   190
  6
Continuous
370
    -3
390
F
  0
LAYER
  5
7E
330
2
100
AcDbSymbolTableRecord
100
AcDbLayerTableRecord
  2
TOLERANS
 70
     0
 62
   230
  6
Continuous
370
    -3
390
F
  0
LAYER
  5
7F
330
2
100
AcDbSymbolTableRecord
100
AcDbLayerTableRecord
  2
MERKEZ_CIZGILERI
 70
     0
 62
    30
  6
Continuous
370
    -3
390
F
  0
LAYER
  5
80
330
2
100
AcDbSymbolTableRecord
100
AcDbLayerTableRecord
  2
KESIT-DETAY_CIZGILERI
 70
     0
 62
     7
  6
Continuous
370
    -3
390
F
  0
LAYER
  5
81
330
2
100
AcDbSymbolTableRecord
100
AcDbLayerTableRecord
  2
\U+041E\U+0421\U+0415\U+0412\U+042B\U+0415
 70
     0
 62
     7
  6
Continuous
370
    -3
390
F
  0
LAYER
  5
82
330
2
100
AcDbSymbolTableRecord
100
AcDbLayerTableRecord
  2
\U+0412\U+041E\U+0414\U+042F\U+041D\U+042B\U+0415_\U+0417\U+041D\U+0410\U+041A\U+0418
 70
     0
 62
    11
  6
Continuous
370
    -3
390
F
  0
ENDTAB
  0
TABLE
  2
STYLE
  5
3
330
0
100
AcDbSymbolTable
 70
     1
  0
STYLE
  5
11
330
3
100
AcDbSymbolTableRecord
100
AcDbTextStyleTableRecord
  2
Standard
 70
     0
 40
0.0
 41
1.0
 50
0.0
 71
     0
 42
3.5
  3
txt
  4

  0
ENDTAB
  0
TABLE
  2
VIEW
  5
6
330
0
100
AcDbSymbolTable
 70
     0
  0
ENDTAB
  0
TABLE
  2
UCS
  5
7
330
0
100
AcDbSymbolTable
 70
     0
  0
ENDTAB
  0
TABLE
  2
APPID
  5
9
330
0
100
AcDbSymbolTable
 70
     1
  0
APPID
  5
12
330
9
100
AcDbSymbolTableRecord
100
AcDbRegAppTableRecord
  2
ACAD
 70
     0
  0
ENDTAB
  0
TABLE
  2
DIMSTYLE
  5
A
330
0
100
AcDbSymbolTable
 70
     1
100
AcDbDimStyleTable
  0
DIMSTYLE
105
27
330
A
100
AcDbSymbolTableRecord
100
AcDbDimStyleTableRecord
  2
ISO-25
 70
     0
 41
2.5
 42
0.625
 43
3.75
 44
1.25
 73
     0
 74
     0
 77
     1
 78
     8
140
2.5
141
2.5
143
0.0393700787
147
0.625
171
     3
172
     1
178
     0
271
     2
272
     2
274
     3
278
    44
283
     0
284
     8
340
11
  0
ENDTAB
  0
TABLE
  2
BLOCK_RECORD
  5
1
330
0
100
AcDbSymbolTable
 70
     2
  0
BLOCK_RECORD
  5
1F
330
1
100
AcDbSymbolTableRecord
100
AcDbBlockTableRecord
  2
*Model_Space
340
22
  0
BLOCK_RECORD
  5
1B
330
1
100
AcDbSymbolTableRecord
100
AcDbBlockTableRecord
  2
*Paper_Space
340
1E
  0
BLOCK_RECORD
  5
23
330
1
100
AcDbSymbolTableRecord
100
AcDbBlockTableRecord
  2
*Paper_Space0
340
26
  0
BLOCK_RECORD
  5
85
330
1
100
AcDbSymbolTableRecord
100
AcDbBlockTableRecord
  2
SW_CENTERMARKSYMBOL_0
340
0
102
{BLKREFS
331
90
102
}
  0
ENDTAB
  0
ENDSEC
  0
SECTION
  2
BLOCKS
  0
BLOCK
  5
20
330
1F
100
AcDbEntity
  8
0
100
AcDbBlockBegin
  2
*Model_Space
 70
     0
 10
0.0
 20
0.0
 30
0.0
  3
*Model_Space
  1

  0
ENDBLK
  5
21
330
1F
100
AcDbEntity
  8
0
100
AcDbBlockEnd
  0
BLOCK
  5
1C
330
1B
100
AcDbEntity
 67
     1
  8
0
100
AcDbBlockBegin
  2
*Paper_Space
 70
     0
 10
0.0
 20
0.0
 30
0.0
  3
*Paper_Space
  1

  0
ENDBLK
  5
1D
330
1B
100
AcDbEntity
 67
     1
  8
0
100
AcDbBlockEnd
  0
BLOCK
  5
24
330
23
100
AcDbEntity
  8
0
100
AcDbBlockBegin
  2
*Paper_Space0
 70
     0
 10
0.0
 20
0.0
 30
0.0
  3
*Paper_Space0
  1

  0
ENDBLK
  5
25
330
23
100
AcDbEntity
  8
0
100
AcDbBlockEnd
  0
BLOCK
  5
86
330
85
100
AcDbEntity
  8
0
100
AcDbBlockBegin
  2
SW_CENTERMARKSYMBOL_0
 70
     0
 10
0.0
 20
0.0
 30
0.0
  3
SW_CENTERMARKSYMBOL_0
  1

  0
LINE
  5
88
330
85
100
AcDbEntity
  8
FORMAT
 62
     0
100
AcDbLine
 10
0.0
 20
0.0
 30
0.0
 11
0.0
 21
2.5
 31
0.0
  0
LINE
  5
89
330
85
100
AcDbEntity
  8
FORMAT
 62
     0
100
AcDbLine
 10
0.0
 20
0.0
 30
0.0
 11
-2.5
 21
0.0
 31
0.0
  0
LINE
  5
8A
330
85
100
AcDbEntity
  8
FORMAT
 62
     0
100
AcDbLine
 10
0.0
 20
0.0
 30
0.0
 11
0.0
 21
-2.5
 31
0.0
  0
LINE
  5
8B
330
85
100
AcDbEntity
  8
FORMAT
 62
     0
100
AcDbLine
 10
0.0
 20
0.0
 30
0.0
 11
2.5
 21
0.0
 31
0.0
  0
LINE
  5
8C
330
85
100
AcDbEntity
  8
FORMAT
 62
     0
100
AcDbLine
 10
0.0
 20
5.0
 30
0.0
 11
0.0
 21
65.0
 31
0.0
  0
LINE
  5
8D
330
85
100
AcDbEntity
  8
FORMAT
 62
     0
100
AcDbLine
 10
-5.0
 20
0.0
 30
0.0
 11
-65.0
 21
0.0
 31
0.0
  0
LINE
  5
8E
330
85
100
AcDbEntity
  8
FORMAT
 62
     0
100
AcDbLine
 10
0.0
 20
-5.0
 30
0.0
 11
0.0
 21
-65.0
 31
0.0
  0
LINE
  5
8F
330
85
100
AcDbEntity
  8
FORMAT
 62
     0
100
AcDbLine
 10
5.0
 20
0.0
 30
0.0
 11
65.0
 21
0.0
 31
0.0
  0
ENDBLK
  5
87
330
85
100
AcDbEntity
  8
0
100
AcDbBlockEnd
  0
ENDSEC
  0
SECTION
  2
ENTITIES
  0
CIRCLE
  5
83
330
1F
100
AcDbEntity
  8
0
  6
Continuous
 62
     7
370
    25
100
AcDbCircle
 10
127.8025537254
 20
106.0321058177
 30
0.0
 40
51.1
  0
CIRCLE
  5
84
330
1F
100
AcDbEntity
  8
0
  6
Continuous
 62
     7
370
    25
100
AcDbCircle
 10
127.8025537254
 20
106.0321058177
 30
0.0
 40
62.5
  0
INSERT
  5
90
330
1F
100
AcDbEntity
  8
FORMAT
100
AcDbBlockReference
  2
SW_CENTERMARKSYMBOL_0
 10
127.8025537254
 20
106.0321058177
 30
0.0
  0
ARC
  5
91
330
1F
100
AcDbEntity
  8
0
  6
Continuous
 62
     7
370
    25
100
AcDbCircle
 10
125.8940055107
 20
393.973701979
 30
0.0
 40
187.4999999999999
100
AcDbArc
 50
270.583219446
 51
290.0910048428
  0
ARC
  5
92
330
1F
100
AcDbEntity
  8
0
  6
Continuous
 62
     7
370
    25
100
AcDbCircle
 10
129.7111019401
 20
393.973701979
 30
0.0
 40
187.4999999999999
100
AcDbArc
 50
249.9089951572
 51
269.416780554
  0
LINE
  5
93
330
1F
100
AcDbEntity
  8
0
  6
Continuous
 62
     7
370
    25
100
AcDbLine
 10
65.3025537254
 20
314.0406043201
 30
0.0
 11
65.3025537254
 21
217.8834157141
 31
0.0
  0
LINE
  5
94
330
1F
100
AcDbEntity
  8
0
  6
Continuous
 62
     7
370
    25
100
AcDbLine
 10
190.3025537254
 20
217.8834157141
 30
0.0
 11
190.3025537254
 21
314.0406043201
 31
0.0
  0
LINE
  5
95
330
1F
100
AcDbEntity
  8
0
  6
Continuous
 62
     7
370
    25
100
AcDbLine
 10
127.8025537254
 20
217.8834157141
 30
0.0
 11
190.3025537254
 21
217.8834157141
 31
0.0
  0
LINE
  5
96
330
1F
100
AcDbEntity
  8
0
  6
Continuous
 62
     7
370
    25
100
AcDbLine
 10
65.3025537254
 20
217.8834157141
 30
0.0
 11
127.8025537254
 21
217.8834157141
 31
0.0
  0
LINE
  5
97
330
1F
100
AcDbEntity
  8
0
  6
Continuous
 62
     7
370
    25
100
AcDbLine
 10
127.8025537254
 20
314.0406043201
 30
0.0
 11
190.3025537254
 21
314.0406043201
 31
0.0
  0
LINE
  5
98
330
1F
100
AcDbEntity
  8
0
  6
Continuous
 62
     7
370
    25
100
AcDbLine
 10
65.3025537254
 20
314.0406043201
 30
0.0
 11
127.8025537254
 21
314.0406043201
 31
0.0
  0
LINE
  5
99
330
1F
100
AcDbEntity
  8
0
  6
Continuous
 62
     7
370
    25
100
AcDbLine
 10
190.3025537254
 20
-109.9046338966
 30
0.0
 11
190.3025537254
 21
-13.7474452906
 31
0.0
  0
LINE
  5
9A
330
1F
100
AcDbEntity
  8
0
  6
Continuous
 62
     7
370
    25
100
AcDbLine
 10
65.3025537254
 20
-13.7474452906
 30
0.0
 11
65.3025537254
 21
-109.9046338966
 31
0.0
  0
ARC
  5
9B
330
1F
100
AcDbEntity
  8
0
  6
Continuous
 62
     7
370
    25
100
AcDbCircle
 10
129.7111019401
 20
-189.8377315555
 30
0.0
 40
187.4999999999999
100
AcDbArc
 50
90.583219446
 51
110.0910048428
  0
ARC
  5
9C
330
1F
100
AcDbEntity
  8
0
  6
Continuous
 62
     7
370
    25
100
AcDbCircle
 10
125.8940055107
 20
-189.8377315555
 30
0.0
 40
187.4999999999999
100
AcDbArc
 50
69.9089951572
 51
89.416780554
  0
LINE
  5
9D
330
1F
100
AcDbEntity
  8
0
  6
Continuous
 62
     7
370
    25
100
AcDbLine
 10
190.3025537254
 20
-109.9046338966
 30
0.0
 11
65.3025537254
 21
-109.9046338966
 31
0.0
  0
LINE
  5
9E
330
1F
100
AcDbEntity
  8
0
  6
Continuous
 62
     7
370
    25
100
AcDbLine
 10
190.3025537254
 20
-13.7474452906
 30
0.0
 11
65.3025537254
 21
-13.7474452906
 31
0.0
  0
ARC
  5
9F
330
1F
100
AcDbEntity
  8
0
  6
Continuous
 62
     7
370
    25
100
AcDbCircle
 10
413.013134458
 20
107.9406540324
 30
0.0
 40
187.4999999999999
100
AcDbArc
 50
180.583219446
 51
200.0910048428
  0
ARC
  5
A0
330
1F
100
AcDbEntity
  8
0
  6
Continuous
 62
     7
370
    25
100
AcDbCircle
 10
413.013134458
 20
104.1235576029
 30
0.0
 40
187.4999999999999
100
AcDbArc
 50
159.9089951572
 51
179.416780554
  0
LINE
  5
A1
330
1F
100
AcDbEntity
  8
0
  6
Continuous
 62
     7
370
    25
100
AcDbLine
 10
333.080036799
 20
168.5321058177
 30
0.0
 11
236.922848193
 21
168.5321058177
 31
0.0
  0
LINE
  5
A2
330
1F
100
AcDbEntity
  8
0
  6
Continuous
 62
     7
370
    25
100
AcDbLine
 10
236.922848193
 20
43.5321058177
 30
0.0
 11
333.080036799
 21
43.5321058177
 31
0.0
  0
LINE
  5
A3
330
1F
100
AcDbEntity
  8
0
  6
Continuous
 62
     7
370
    25
100
AcDbLine
 10
236.922848193
 20
168.5321058177
 30
0.0
 11
236.922848193
 21
43.5321058177
 31
0.0
  0
LINE
  5
A4
330
1F
100
AcDbEntity
  8
0
  6
Continuous
 62
     7
370
    25
100
AcDbLine
 10
333.080036799
 20
168.5321058177
 30
0.0
 11
333.080036799
 21
43.5321058177
 31
0.0
  0
ARC
  5
A5
330
1F
100
AcDbEntity
  8
0
  6
Continuous
 62
     7
370
    25
100
AcDbCircle
 10
-168.635443307
 20
104.1235576029
 30
0.0
 40
187.4999999999999
100
AcDbArc
 50
0.583219446
 51
20.0910048428
  0
ARC
  5
A6
330
1F
100
AcDbEntity
  8
0
  6
Continuous
 62
     7
370
    25
100
AcDbCircle
 10
-168.635443307
 20
107.9406540324
 30
0.0
 40
187.4999999999999
100
AcDbArc
 50
339.9089951572
 51
359.416780554
  0
LINE
  5
A7
330
1F
100
AcDbEntity
  8
0
  6
Continuous
 62
     7
370
    25
100
AcDbLine
 10
-88.7023456481
 20
43.5321058177
 30
0.0
 11
7.454842958
 21
43.5321058177
 31
0.0
  0
LINE
  5
A8
330
1F
100
AcDbEntity
  8
0
  6
Continuous
 62
     7
370
    25
100
AcDbLine
 10
7.454842958
 20
168.5321058177
 30
0.0
 11
-88.7023456481
 21
168.5321058177
 31
0.0
  0
LINE
  5
A9
330
1F
100
AcDbEntity
  8
0
  6
Continuous
 62
     7
370
    25
100
AcDbLine
 10
7.454842958
 20
43.5321058177
 30
0.0
 11
7.454842958
 21
168.5321058177
 31
0.0
  0
LINE
  5
AA
330
1F
100
AcDbEntity
  8
0
  6
Continuous
 62
     7
370
    25
100
AcDbLine
 10
-88.7023456481
 20
43.5321058177
 30
0.0
 11
-88.7023456481
 21
168.5321058177
 31
0.0
  0
LINE
  5
AB
330
1F
100
AcDbEntity
  8
0
  6
Continuous
 62
     7
370
    25
100
AcDbLine
 10
233.7401773491
 20
-99.7661315793
 30
0.0
 11
301.7335774722
 21
-139.0178859733
 31
0.0
  0
LINE
  5
AC
330
1F
100
AcDbEntity
  8
0
  6
Continuous
 62
     7
370
    25
100
AcDbLine
 10
364.228498262
 20
-30.7617781757
 30
0.0
 11
296.2350981388
 21
8.4899762183
 31
0.0
  0
LWPOLYLINE
  5
AD
330
1F
100
AcDbEntity
  8
0
  6
Continuous
 62
     7
370
    25
100
AcDbPolyline
 90
      133
 70
   128
 43
0.0
 10
264.9876377439
 20
-96.6718784233
 10
267.0904812027
 20
-95.4001287477
 10
269.1885610448
 20
-94.0156520212
 10
271.2771244443
 20
-92.521584529
 10
273.3514401336
 20
-90.9213108144
 10
275.4068091204
 20
-89.2184560121
 10
277.4385753329
 20
-87.416877636
 10
279.4421361671
 20
-85.5206568405
 10
281.4129529133
 20
-83.5340891757
 10
283.3465610377
 20
-81.4616748561
 10
285.238580296
 20
-79.3081085669
 10
287.084724656
 20
-77.0782688282
 10
288.880812007
 20
-74.7772069444
 10
290.6227736334
 20
-72.4101355607
 10
292.3066634319
 20
-69.982416855
 10
293.9286668505
 20
-67.4995503912
 10
295.4851095298
 20
-64.9671606603
 10
296.9724656264
 20
-62.3909843395
 10
298.3873658005
 20
-59.7768572969
 10
299.726604848
 20
-57.1307013709
 10
300.9871489618
 20
-54.4585109559
 10
302.1661426041
 20
-51.7663394225
 10
303.2609149749
 20
-49.0602854052
 10
304.2689860629
 20
-46.3464789867
 10
305.1880722627
 20
-43.6310678114
 10
306.0160915484
 20
-40.920203159
 10
306.7511681902
 20
-38.2200260098
 10
307.3916370029
 20
-35.5366531336
 10
307.9360471188
 20
-32.8761632329
 10
308.3831652737
 20
-30.2445831731
 10
308.7319786013
 20
-27.6478743294
 10
308.9816969272
 20
-25.0919190826
 10
309.1317545591
 20
-22.5825074933
 10
309.1818115681
 20
-20.125324186
 10
309.1317545591
 20
-17.7259354711
 10
308.9816969272
 20
-15.3897767358
 10
308.7319786013
 20
-13.122140131
 10
308.3831652737
 20
-10.928162583
 10
307.9360471188
 20
-8.8128141566
 10
307.3916370029
 20
-6.7808867964
 10
306.7511681902
 20
-4.8369834712
 10
306.0160915484
 20
-2.9855077475
 10
305.1880722627
 20
-1.2306538132
 10
304.2689860629
 20
0.4236030231
 10
303.2609149749
 20
1.9735153377
 10
302.1661426041
 20
3.4155720805
 10
300.9871489618
 20
4.7465065293
 10
299.726604848
 20
5.9633036895
 10
298.3873658005
 20
7.0632071241
 10
296.9724656264
 20
8.0437251981
 10
295.4851095298
 20
8.9026367227
 10
293.9286668505
 20
9.637995987
 10
292.3066634319
 20
10.2481371658
 10
290.6227736334
 20
10.731678093
 10
288.880812007
 20
11.0875233931
 10
287.084724656
 20
11.3148669618
 10
285.238580296
 20
11.4131937928
 10
283.3465610377
 20
11.3822811444
 10
281.4129529133
 20
11.2221990435
 10
279.4421361671
 20
10.9333101277
 10
277.4385753329
 20
10.5162688232
 10
275.4068091204
 20
9.9720198627
 10
273.3514401336
 20
9.3017961452
 10
271.2771244443
 20
8.507115943
 10
269.1885610448
 20
7.5897794622
 10
267.0904812027
 20
6.5518647652
 10
264.9876377439
 20
5.3957230624
 10
262.8847942851
 20
4.1239733867
 10
260.7867144431
 20
2.7394966603
 10
258.6981510435
 20
1.245429168
 10
256.6238353542
 20
-0.3548445466
 10
254.5684663674
 20
-2.0576993488
 10
252.536700155
 20
-3.8592777249
 10
250.5331393208
 20
-5.7554985204
 10
248.5623225746
 20
-7.7420661853
 10
246.6287144502
 20
-9.8144805048
 10
244.7366951919
 20
-11.9680467941
 10
242.8905508319
 20
-14.1978865327
 10
241.0944634809
 20
-16.4989484165
 10
239.3525018544
 20
-18.8660198003
 10
237.6686120559
 20
-21.2937385059
 10
236.0466086373
 20
-23.7766049697
 10
234.4901659581
 20
-26.3089947006
 10
233.0028098615
 20
-28.8851710214
 10
231.5879096874
 20
-31.499298064
 10
230.2486706399
 20
-34.14545399
 10
228.988126526
 20
-36.8176444051
 10
227.8091328838
 20
-39.5098159384
 10
226.7143605129
 20
-42.2158699557
 10
225.706289425
 20
-44.9296763742
 10
224.7872032252
 20
-47.6450875495
 10
223.9591839394
 20
-50.3559522019
 10
223.2241072977
 20
-53.0561293511
 10
222.583638485
 20
-55.7395022273
 10
222.0392283691
 20
-58.399992128
 10
221.5921102142
 20
-61.0315721878
 10
221.2432968866
 20
-63.6282810315
 10
220.9935785607
 20
-66.1842362783
 10
220.8435209288
 20
-68.6936478676
 10
220.7934639198
 20
-71.1508311749
 10
220.8435209288
 20
-73.5502198898
 10
220.9935785607
 20
-75.8863786251
 10
221.2432968866
 20
-78.1540152299
 10
221.5921102142
 20
-80.3479927779
 10
222.0392283691
 20
-82.4633412043
 10
222.583638485
 20
-84.4952685646
 10
223.2241072977
 20
-86.4391718897
 10
223.9591839394
 20
-88.2906476134
 10
224.7872032252
 20
-90.0455015478
 10
225.706289425
 20
-91.6997583841
 10
226.7143605129
 20
-93.2496706986
 10
227.8091328838
 20
-94.6917274414
 10
228.988126526
 20
-96.0226618902
 10
230.2486706399
 20
-97.2394590504
 10
231.5879096874
 20
-98.339362485
 10
233.0028098615
 20
-99.319880559
 10
234.4901659581
 20
-100.1787920836
 10
236.0466086373
 20
-100.9141513479
 10
237.6686120559
 20
-101.5242925267
 10
239.3525018544
 20
-102.007833454
 10
241.0944634809
 20
-102.363678754
 10
242.8905508319
 20
-102.5910223227
 10
244.7366951919
 20
-102.6893491538
 10
246.6287144502
 20
-102.6584365053
 10
248.5623225746
 20
-102.4983544045
 10
250.5331393208
 20
-102.2094654886
 10
252.536700155
 20
-101.7924241841
 10
254.5684663674
 20
-101.2481752237
 10
256.6238353542
 20
-100.5779515062
 10
258.6981510435
 20
-99.7832713039
 10
260.7867144431
 20
-98.8659348231
 10
262.8847942851
 20
-97.8280201261
 10
264.9876377439
 20
-96.6718784233
  0
LWPOLYLINE
  5
AE
330
1F
100
AcDbEntity
  8
0
  6
Continuous
 62
     7
370
    25
100
AcDbPolyline
 90
       51
 70
   128
 43
0.0
 10
332.9810378671
 20
-135.9236328173
 10
335.0838813259
 20
-134.6518831417
 10
337.1819611679
 20
-133.2674064152
 10
339.2705245675
 20
-131.773338923
 10
341.3448402568
 20
-130.1730652084
 10
343.4002092436
 20
-128.4702104061
 10
345.4319754561
 20
-126.66863203
 10
347.4355362902
 20
-124.7724112345
 10
349.4063530364
 20
-122.7858435697
 10
351.3399611609
 20
-120.7134292501
 10
353.2319804191
 20
-118.5598629609
 10
355.0781247792
 20
-116.3300232222
 10
356.8742121301
 20
-114.0289613384
 10
358.6161737566
 20
-111.6618899547
 10
360.3000635551
 20
-109.2341712491
 10
361.9220669737
 20
-106.7513047852
 10
363.4785096529
 20
-104.2189150543
 10
364.9658657496
 20
-101.6427387336
 10
366.3807659236
 20
-99.0286116909
 10
367.7200049712
 20
-96.3824557649
 10
368.980549085
 20
-93.7102653499
 10
370.1595427272
 20
-91.0180938165
 10
371.2543150981
 20
-88.3120397992
 10
372.262386186
 20
-85.5982333807
 10
373.1814723858
 20
-82.8828222054
 10
374.0094916716
 20
-80.171957553
 10
374.7445683133
 20
-77.4717804039
 10
375.3850371261
 20
-74.7884075276
 10
375.9294472419
 20
-72.1279176269
 10
376.3765653968
 20
-69.4963375671
 10
376.7253787244
 20
-66.8996287234
 10
376.9750970503
 20
-64.3436734766
 10
377.1251546822
 20
-61.8342618873
 10
377.1752116912
 20
-59.37707858
 10
377.1251546822
 20
-56.9776898651
 10
376.9750970503
 20
-54.6415311298
 10
376.7253787244
 20
-52.373894525
 10
376.3765653968
 20
-50.179916977
 10
375.9294472419
 20
-48.0645685506
 10
375.3850371261
 20
-46.0326411904
 10
374.7445683133
 20
-44.0887378652
 10
374.0094916716
 20
-42.2372621415
 10
373.1814723858
 20
-40.4824082072
 10
372.262386186
 20
-38.8281513709
 10
371.2543150981
 20
-37.2782390564
 10
370.1595427272
 20
-35.8361823135
 10
368.980549085
 20
-34.5052478647
 10
367.7200049712
 20
-33.2884507046
 10
366.3807659236
 20
-32.1885472699
 10
364.9658657496
 20
-31.2080291959
 10
364.228498262
 20
-30.7617781757
  0
LWPOLYLINE
  5
AF
330
1F
100
AcDbEntity
  8
0
  6
Continuous
 62
     7
370
    25
100
AcDbPolyline
 90
       18
 70
   128
 43
0.0
 10
301.7335774722
 20
-139.0178859733
 10
302.4835660812
 20
-139.4305464776
 10
304.0400087605
 20
-140.1659057419
 10
305.6620121791
 20
-140.7760469207
 10
307.3459019776
 20
-141.259587848
 10
309.087863604
 20
-141.615433148
 10
310.883950955
 20
-141.8427767167
 10
312.730095315
 20
-141.9411035478
 10
314.6221145733
 20
-141.9101908993
 10
316.5557226977
 20
-141.7501087985
 10
318.5265394439
 20
-141.4612198826
 10
320.5301002781
 20
-141.0441785781
 10
322.5618664906
 20
-140.4999296177
 10
324.6172354774
 20
-139.8297059002
 10
326.6915511667
 20
-139.0350256979
 10
328.7801145663
 20
-138.1176892172
 10
330.8781944083
 20
-137.0797745201
 10
332.9810378671
 20
-135.9236328173
  0
LWPOLYLINE
  5
B0
330
1F
100
AcDbEntity
  8
0
  6
Continuous
 62
     7
370
    25
100
AcDbPolyline
 90
      120
 70
   128
 43
0.0
 10
264.9876377439
 20
-87.3633131678
 10
266.8945776221
 20
-86.204312351
 10
268.7962025169
 20
-84.9322461622
 10
270.6872122585
 20
-83.5506600782
 10
272.5623362636
 20
-82.0634048272
 10
274.4163482255
 20
-80.4746256564
 10
276.2440806801
 20
-78.7887507781
 10
278.0404394093
 20
-77.0104790281
 10
279.8004176392
 20
-75.1447667686
 10
281.5191099947
 20
-73.1968140745
 10
283.1917261721
 20
-71.1720502392
 10
284.8136042899
 20
-69.0761186427
 10
286.3802238831
 20
-66.9148610222
 10
287.8872185018
 20
-64.6943011904
 10
289.3303878817
 20
-62.4206282458
 10
290.705709651
 20
-60.1001793228
 10
292.0093505411
 20
-57.7394219286
 10
293.2376770711
 20
-55.3449359175
 10
294.3872656747
 20
-52.9233951515
 10
295.4549122423
 20
-50.481548899
 10
296.4376410512
 20
-48.0262030235
 10
297.3327130602
 20
-45.5642010144
 10
298.137633543
 20
-43.1024049128
 10
298.8501590417
 20
-40.647676186
 10
299.4683036202
 20
-38.2068566033
 10
299.9903443985
 20
-35.7867491665
 10
300.4148263554
 20
-33.3940991491
 10
300.7405663835
 20
-31.035575296
 10
300.966656587
 20
-28.7177512361
 10
301.0924668118
 20
-26.4470871608
 10
301.1176464024
 20
-24.2299118181
 10
301.0421251787
 20
-22.0724048734
 10
300.8661136319
 20
-19.9805796854
 10
300.5901023377
 20
-17.9602665462
 10
300.2148605892
 20
-16.0170964308
 10
299.7414342523
 20
-14.1564853029
 10
299.1711428513
 20
-12.3836190194
 10
298.5055758904
 20
-10.7034388766
 10
297.7465884243
 20
-9.1206278379
 10
296.8962958871
 20
-7.6395974816
 10
295.9570681966
 20
-6.2644757049
 10
294.9315231488
 20
-4.9990952189
 10
293.8225191218
 20
-3.8469828658
 10
292.6331471087
 20
-2.8113497895
 10
291.3667221025
 20
-1.8950824851
 10
290.0267738569
 20
-1.1007347539
 10
288.6170370481
 20
-0.4305205856
 10
287.1414408653
 20
0.1136920128
 10
285.6040980598
 20
0.5303862233
 10
284.0092934816
 20
0.8184006441
 10
282.3614721373
 20
0.9769325276
 10
280.6652268004
 20
1.0055400169
 10
278.9252852109
 20
0.9041433779
 10
277.146496898
 20
0.6730252211
 10
275.333819664
 20
0.3128297142
 10
273.4923057653
 20
-0.1754392131
 10
271.6270878314
 20
-0.7904206679
 10
269.7433645593
 20
-1.5304005865
 10
267.8463862236
 20
-2.3933165122
 10
265.9414400432
 20
-3.3767633436
 10
264.0338354447
 20
-4.4780000378
 10
262.1288892642
 20
-5.6939572508
 10
260.2319109285
 20
-7.0212458917
 10
258.3481876564
 20
-8.4561665689
 10
256.4829697226
 20
-9.9947199013
 10
254.6414558239
 20
-11.6326176647
 10
252.8287785898
 20
-13.3652947442
 10
251.049990277
 20
-15.1879218582
 10
249.3100486875
 20
-17.0954190179
 10
247.6138033506
 20
-19.0824696865
 10
245.9659820062
 20
-21.1435355976
 10
244.3711774281
 20
-23.2728721908
 10
242.8338346226
 20
-25.464544623
 10
241.3582384398
 20
-27.7124443101
 10
239.9485016309
 20
-30.0103059525
 10
238.6085533854
 20
-32.3517249976
 10
237.3421283792
 20
-34.7301754907
 10
236.1527563661
 20
-37.1390282636
 10
235.043752339
 20
-39.5715694116
 10
234.0182072913
 20
-42.0210190062
 10
233.0789796008
 20
-44.480549992
 10
232.2286870636
 20
-46.9433072151
 10
231.4696995974
 20
-49.4024265295
 10
230.8041326366
 20
-51.8510539284
 10
230.2338412355
 20
-54.2823646482
 10
229.7604148987
 20
-56.6895821897
 10
229.3851731502
 20
-59.0659972061
 10
229.109161856
 20
-61.4049862023
 10
228.9331503092
 20
-63.7000299966
 10
228.8576290855
 20
-65.9447318903
 10
228.8828086761
 20
-68.1328354965
 10
229.0086189009
 20
-70.2582421781
 10
229.2347091044
 20
-72.3150280454
 10
229.5604491325
 20
-74.2974604674
 10
229.9849310894
 20
-76.2000140493
 10
230.5069718677
 20
-78.017386033
 10
231.1251164461
 20
-79.744511077
 10
231.8376419449
 20
-81.3765753738
 10
232.6425624277
 20
-82.9090300676
 10
233.5376344366
 20
-84.3376039322
 10
234.5203632456
 20
-85.6583152762
 10
235.5880098131
 20
-86.8674830401
 10
236.7375984167
 20
-87.9617370565
 10
237.9659249468
 20
-88.9380274432
 10
239.2695658369
 20
-89.7936331037
 10
240.6448876061
 20
-90.5261693117
 10
242.0880569861
 20
-91.1335943573
 10
243.5950516048
 20
-91.614215238
 10
245.1616711979
 20
-91.9666923771
 10
246.7835493158
 20
-92.1900433578
 10
248.4561654931
 20
-92.2836456607
 10
250.1748578487
 20
-92.2472383994
 10
251.9348360785
 20
-92.0809230475
 10
253.7311948078
 20
-91.7851631557
 10
255.5589272624
 20
-91.36078306
 10
257.4129392242
 20
-90.8089655836
 10
259.2880632294
 20
-90.131248741
 10
261.179072971
 20
-89.3295214504
 10
263.0806978657
 20
-88.4060182697
 10
264.9876377439
 20
-87.3633131678
  0
ENDSEC
  0
SECTION
  2
OBJECTS
  0
DICTIONARY
  5
C
330
0
100
AcDbDictionary
281
     1
  3
ACAD_GROUP
350
D
  3
ACAD_LAYOUT
350
1A
  3
ACAD_MLINESTYLE
350
17
  3
ACAD_PLOTSETTINGS
350
19
  3
ACAD_PLOTSTYLENAME
350
E
  3
ACAD_SCALELIST
350
47
  3
DWGPROPS
350
B1
  0
DICTIONARY
  5
D
102
{ACAD_REACTORS
330
C
102
}
330
C
100
AcDbDictionary
281
     1
  0
DICTIONARY
  5
1A
102
{ACAD_REACTORS
330
C
102
}
330
C
100
AcDbDictionary
281
     1
  3
Layout1
350
1E
  3
Layout2
350
26
  3
Model
350
22
  0
DICTIONARY
  5
17
102
{ACAD_REACTORS
330
C
102
}
330
C
100
AcDbDictionary
281
     1
  3
Standard
350
18
  0
DICTIONARY
  5
19
102
{ACAD_REACTORS
330
C
102
}
330
C
100
AcDbDictionary
281
     1
  0
ACDBDICTIONARYWDFLT
  5
E
102
{ACAD_REACTORS
330
C
102
}
330
C
100
AcDbDictionary
281
     1
  3
Normal
350
F
100
AcDbDictionaryWithDefault
340
F
  0
DICTIONARY
  5
47
102
{ACAD_REACTORS
330
C
102
}
330
C
100
AcDbDictionary
281
     1
  3
A0
350
48
  3
A1
350
49
  3
A2
350
4A
  3
A3
350
4B
  3
A4
350
4C
  3
A5
350
4D
  3
A6
350
4E
  3
A7
350
4F
  3
A8
350
50
  3
A9
350
51
  3
B0
350
52
  3
B1
350
53
  3
B2
350
54
  3
B3
350
55
  3
B4
350
56
  3
B5
350
57
  3
B6
350
58
  3
B7
350
59
  3
B8
350
5A
  3
B9
350
5B
  3
C0
350
5C
  3
C1
350
5D
  3
C2
350
5E
  3
C3
350
5F
  3
C4
350
60
  3
C5
350
61
  3
C6
350
62
  3
C7
350
63
  3
C8
350
64
  3
C9
350
65
  3
D0
350
66
  3
D1
350
67
  3
D2
350
68
  0
XRECORD
  5
B1
102
{ACAD_REACTORS
330
C
102
}
330
C
100
AcDbXrecord
280
     1
  1
DWGPROPS COOKIE
  2

  3

  4

  6

  7

  8
b.kav
  9

300
=
301
=
302
=
303
=
304
=
305
=
306
=
307
=
308
=
309
=
 40
0.0
 41
2460697.415931597
 42
2460697.415931701
  1

 90
        0
  0
LAYOUT
  5
1E
102
{ACAD_REACTORS
330
1A
102
}
330
1A
100
AcDbPlotSettings
  1

  2
none_device
  4

  6

 40
0.0
 41
0.0
 42
0.0
 43
0.0
 44
0.0
 45
0.0
 46
0.0
 47
0.0
 48
0.0
 49
0.0
140
0.0
141
0.0
142
1.0
143
1.0
 70
   688
 72
     1
 73
     0
 74
     5
  7

 75
    16
147
1.0
148
0.0
149
0.0
100
AcDbLayout
  1
Layout1
 70
     1
 71
     1
 10
0.0
 20
0.0
 11
420.0
 21
297.0
 12
0.0
 22
0.0
 32
0.0
 14
1.0000000000E+20
 24
1.0000000000E+20
 34
1.0000000000E+20
 15
-1.0000000000E+20
 25
-1.0000000000E+20
 35
-1.0000000000E+20
146
0.0
 13
0.0
 23
0.0
 33
0.0
 16
1.0
 26
0.0
 36
0.0
 17
0.0
 27
1.0
 37
0.0
 76
     0
330
1B
  0
LAYOUT
  5
26
102
{ACAD_REACTORS
330
1A
102
}
330
1A
100
AcDbPlotSettings
  1

  2
none_device
  4

  6

 40
0.0
 41
0.0
 42
0.0
 43
0.0
 44
0.0
 45
0.0
 46
0.0
 47
0.0
 48
0.0
 49
0.0
140
0.0
141
0.0
142
1.0
143
1.0
 70
   688
 72
     1
 73
     0
 74
     5
  7

 75
    16
147
1.0
148
0.0
149
0.0
100
AcDbLayout
  1
Layout2
 70
     1
 71
     2
 10
0.0
 20
0.0
 11
0.0
 21
0.0
 12
0.0
 22
0.0
 32
0.0
 14
0.0
 24
0.0
 34
0.0
 15
0.0
 25
0.0
 35
0.0
146
0.0
 13
0.0
 23
0.0
 33
0.0
 16
1.0
 26
0.0
 36
0.0
 17
0.0
 27
1.0
 37
0.0
 76
     0
330
23
  0
LAYOUT
  5
22
102
{ACAD_REACTORS
330
1A
102
}
330
1A
100
AcDbPlotSettings
  1

  2
none_device
  4
Letter_(8.50_x_11.00_Inches)
  6

 40
6.35
 41
6.35
 42
6.35000508
 43
6.35000508
 44
215.9
 45
279.4
 46
0.0
 47
0.0
 48
0.0
 49
0.0
140
0.0
141
0.0
142
1.0
143
1.0
 70
  1712
 72
     1
 73
     0
 74
     0
  7

 75
     0
147
1.0
148
0.0
149
0.0
100
AcDbLayout
  1
Model
 70
     1
 71
     0
 10
0.0
 20
0.0
 11
279.4
 21
215.9
 12
0.0
 22
0.0
 32
0.0
 14
0.0
 24
0.0
 34
0.0
 15
279.4
 25
215.9
 35
0.0
146
0.0
 13
0.0
 23
0.0
 33
0.0
 16
1.0
 26
0.0
 36
0.0
 17
0.0
 27
1.0
 37
0.0
 76
     0
330
1F
331
29
  0
MLINESTYLE
  5
18
102
{ACAD_REACTORS
330
17
102
}
330
17
100
AcDbMlineStyle
  2
Standard
 70
     0
  3

 62
   256
 51
90.0
 52
90.0
 71
     2
 49
0.5
 62
   256
  6
BYLAYER
 49
-0.5
 62
   256
  6
BYLAYER
  0
ACDBPLACEHOLDER
  5
F
102
{ACAD_REACTORS
330
E
102
}
330
E
  0
SCALE
  5
48
102
{ACAD_REACTORS
330
47
102
}
330
47
100
AcDbScale
 70
     0
300
1:1
140
1.0
141
1.0
290
     1
  0
SCALE
  5
49
102
{ACAD_REACTORS
330
47
102
}
330
47
100
AcDbScale
 70
     0
300
1:2
140
1.0
141
2.0
290
     0
  0
SCALE
  5
4A
102
{ACAD_REACTORS
330
47
102
}
330
47
100
AcDbScale
 70
     0
300
1:4
140
1.0
141
4.0
290
     0
  0
SCALE
  5
4B
102
{ACAD_REACTORS
330
47
102
}
330
47
100
AcDbScale
 70
     0
300
1:5
140
1.0
141
5.0
290
     0
  0
SCALE
  5
4C
102
{ACAD_REACTORS
330
47
102
}
330
47
100
AcDbScale
 70
     0
300
1:8
140
1.0
141
8.0
290
     0
  0
SCALE
  5
4D
102
{ACAD_REACTORS
330
47
102
}
330
47
100
AcDbScale
 70
     0
300
1:10
140
1.0
141
10.0
290
     0
  0
SCALE
  5
4E
102
{ACAD_REACTORS
330
47
102
}
330
47
100
AcDbScale
 70
     0
300
1:16
140
1.0
141
16.0
290
     0
  0
SCALE
  5
4F
102
{ACAD_REACTORS
330
47
102
}
330
47
100
AcDbScale
 70
     0
300
1:20
140
1.0
141
20.0
290
     0
  0
SCALE
  5
50
102
{ACAD_REACTORS
330
47
102
}
330
47
100
AcDbScale
 70
     0
300
1:30
140
1.0
141
30.0
290
     0
  0
SCALE
  5
51
102
{ACAD_REACTORS
330
47
102
}
330
47
100
AcDbScale
 70
     0
300
1:40
140
1.0
141
40.0
290
     0
  0
SCALE
  5
52
102
{ACAD_REACTORS
330
47
102
}
330
47
100
AcDbScale
 70
     0
300
1:50
140
1.0
141
50.0
290
     0
  0
SCALE
  5
53
102
{ACAD_REACTORS
330
47
102
}
330
47
100
AcDbScale
 70
     0
300
1:100
140
1.0
141
100.0
290
     0
  0
SCALE
  5
54
102
{ACAD_REACTORS
330
47
102
}
330
47
100
AcDbScale
 70
     0
300
2:1
140
2.0
141
1.0
290
     0
  0
SCALE
  5
55
102
{ACAD_REACTORS
330
47
102
}
330
47
100
AcDbScale
 70
     0
300
4:1
140
4.0
141
1.0
290
     0
  0
SCALE
  5
56
102
{ACAD_REACTORS
330
47
102
}
330
47
100
AcDbScale
 70
     0
300
8:1
140
8.0
141
1.0
290
     0
  0
SCALE
  5
57
102
{ACAD_REACTORS
330
47
102
}
330
47
100
AcDbScale
 70
     0
300
10:1
140
10.0
141
1.0
290
     0
  0
SCALE
  5
58
102
{ACAD_REACTORS
330
47
102
}
330
47
100
AcDbScale
 70
     0
300
100:1
140
100.0
141
1.0
290
     0
  0
SCALE
  5
59
102
{ACAD_REACTORS
330
47
102
}
330
47
100
AcDbScale
 70
     0
300
1/128" = 1'-0"
140
0.0078125
141
12.0
290
     0
  0
SCALE
  5
5A
102
{ACAD_REACTORS
330
47
102
}
330
47
100
AcDbScale
 70
     0
300
1/64" = 1'-0"
140
0.015625
141
12.0
290
     0
  0
SCALE
  5
5B
102
{ACAD_REACTORS
330
47
102
}
330
47
100
AcDbScale
 70
     0
300
1/32" = 1'-0"
140
0.03125
141
12.0
290
     0
  0
SCALE
  5
5C
102
{ACAD_REACTORS
330
47
102
}
330
47
100
AcDbScale
 70
     0
300
1/16" = 1'-0"
140
0.0625
141
12.0
290
     0
  0
SCALE
  5
5D
102
{ACAD_REACTORS
330
47
102
}
330
47
100
AcDbScale
 70
     0
300
3/32" = 1'-0"
140
0.09375
141
12.0
290
     0
  0
SCALE
  5
5E
102
{ACAD_REACTORS
330
47
102
}
330
47
100
AcDbScale
 70
     0
300
1/8" = 1'-0"
140
0.125
141
12.0
290
     0
  0
SCALE
  5
5F
102
{ACAD_REACTORS
330
47
102
}
330
47
100
AcDbScale
 70
     0
300
3/16" = 1'-0"
140
0.1875
141
12.0
290
     0
  0
SCALE
  5
60
102
{ACAD_REACTORS
330
47
102
}
330
47
100
AcDbScale
 70
     0
300
1/4" = 1'-0"
140
0.25
141
12.0
290
     0
  0
SCALE
  5
61
102
{ACAD_REACTORS
330
47
102
}
330
47
100
AcDbScale
 70
     0
300
3/8" = 1'-0"
140
0.375
141
12.0
290
     0
  0
SCALE
  5
62
102
{ACAD_REACTORS
330
47
102
}
330
47
100
AcDbScale
 70
     0
300
1/2" = 1'-0"
140
0.5
141
12.0
290
     0
  0
SCALE
  5
63
102
{ACAD_REACTORS
330
47
102
}
330
47
100
AcDbScale
 70
     0
300
3/4" = 1'-0"
140
0.75
141
12.0
290
     0
  0
SCALE
  5
64
102
{ACAD_REACTORS
330
47
102
}
330
47
100
AcDbScale
 70
     0
300
1" = 1'-0"
140
1.0
141
12.0
290
     0
  0
SCALE
  5
65
102
{ACAD_REACTORS
330
47
102
}
330
47
100
AcDbScale
 70
     0
300
1-1/2" = 1'-0"
140
1.5
141
12.0
290
     0
  0
SCALE
  5
66
102
{ACAD_REACTORS
330
47
102
}
330
47
100
AcDbScale
 70
     0
300
3" = 1'-0"
140
3.0
141
12.0
290
     0
  0
SCALE
  5
67
102
{ACAD_REACTORS
330
47
102
}
330
47
100
AcDbScale
 70
     0
300
6" = 1'-0"
140
6.0
141
12.0
290
     0
  0
SCALE
  5
68
102
{ACAD_REACTORS
330
47
102
}
330
47
100
AcDbScale
 70
     0
300
1'-0" = 1'-0"
140
12.0
141
12.0
290
     0
  0
ENDSEC
  0
EOF
